You are on page 1of 1

Wonderwall.

txt
Verse- back-beat the word is on the street... part come in on fire
|----------------------------------------|
|----------------------------------------|
|--------------0-----2-2-0-2--0----------|
|--0---x--0------------------------------|
|----------------------------------------------------------------|
|----------------------------------------------------------------|
|-------------------x-0--00-0---------------------0--2-2-0-2---0-|
|--x-2-2--2---2---------------------x-0-000-0--------------------|x3
Pre-chorus - and all the roads that lead of there...
|--------------------------------------------------------------------|
|--------------------------------------------------------------------|
|--5-5-----5----5--7-7----7\-----7-9-9-9-9---7----9---7-9--9---------|
|--------------------------------------------------------------------|x2
there are many thing that i would like...
|-------------------------------------------------|
|-------------------------------------------------|
|--5-5-----5----5--7-7----7-----------------------|
|--------------------------------5---4---2----5---|
|--------------------------------------------------------|
|--------------------------------------------------------|
|--------------------------------------------------------|
|--7-7-7--7---5---7--5-7--7---5-7--5-7--5-7--7---5-7--7--|
chorus- Because maybe...
|-------------------------------------------------------|
|-------------------------------------------------------|
|--5-5-5---5---7---9--7-9--9----------7---9---7-9----9-|
|-----------------------------5-5--5--------------------|
Outro just chorus for the rest of the song until the last bar where
it does this
|-------------------------|
|-------------------------|
|-------------------------|
|--5-5--5-5-2--(2)/-14----|

Pgina 1